Zoé

Poli

4.363 exibições
Tom: G
Intro:


   Am
E|-5-------:    E|-5-:
B|---3--5--:    B|---:
G|---------:    G|---:
D|---------:    D|---:
A|---------:    A|---:
E|---------: x2 E|---:


Verso:
Am                              G         D/F#                   Am
Recuerdo a Poli, Era mi chica ideal, una dulce perla blanca mexicana
                                    G          D/F#              Am
La cual yo amaba Pero nunca pude tener, ni mostrarle todo lo que le
     C                   Em   C
Escribí  en el fondo del mar, satélites
   B7
Flotando por el Universo en busca de señal

Coro:
           Am                  G D/F#
Señales de vida en su constelación
  Am                   G D/F#
Electro radiograma de amor
      Am               G D/F#
Destellos de mil años luz
C                                     Em
Esta es la historia de una vieja canción
C                 Am
La de la primera vez

Puente:

   Am
E|-5-------:
B|---3--5--:    
G|---------:    
D|---------:  
A|---------:    
E|---------: x2 


Verso:
Am                              G         D/F#                  Am
Recuerdo a Poli, Era mi chica ideal, Una dulce perla blanca mexicana
                                    G          D/F#             Am
La cual yo amaba Pero nunca pude tener, Ni mostrarle todo lo que le
     C                      Em     C
Escribí  en la espalda del sol, Satélites
   B7
Flotando por el Universo en busca de señal

Coro:
           Am                  G   D/F#
Señales de vida en su constelación
   Am                     G   D/F#
Mensajes o evidencia de amor
      Am               G   D/F#
Destellos de mil años luz
C                                     Em
Esta es la historia de una vieja canción
C                 Am
La de la primera vez

Salida:


E|--7/5---5/3---3/2----2/3---0--2-3-3----------------------------:
B|-------------------------------------3---1---0~----------------:
G|--------------------------------------------------2------------:
D|-----------------------------------------------------2---------:
A|--------------------------------------------------------0h2-2--:
E|---------------------------------------------------------------:

Am        Am Am   Am
She´s All I Wanted She´s All I Needed
      G
The dream
      D/F#                     Am
The dream of all the men in Mexico

Comentários 0

140 .
140 cancelar

conseguiu tocar?

covers

Grave um vídeo tocando Poli e mande pra gente!

Ex.: http://www.youtube.com/watch?v=0IvSvIwGdwk
ver covers de outras músicas »
0:00 / 0:00

Capítulos

    1 versão de violão dificuldade exibições contribuição e correção
    1 versão de guitarra dificuldade exibições contribuição e correção
    1 versão de cavaco dificuldade exibições contribuição e correção
    1 versão de teclado dificuldade exibições contribuição e correção
    play/pausefechar subir/descer velocidade
    6ª corda E5ª corda A4ª corda D3ª corda G2ª corda B1ª corda E
      acordes
      publicidad
      fechar
      ok