Red Hot Chili Peppers

Otherside

2.136.304 exibições
Tom: C
Intro:

E|------------|-----------|
B|----------0-|-----------|
G|------2-2---|-2-0-------|
D|-2-2-2------|-----2-2-0-|
A|------------|-----------|
E|------------|-----------|


(parte)
  (1)         (2)          (3)         (4)

E|-----------|-----------|-----------|---------|
B|-----------|-----------|-----------|---------|
G|-----------|-2-2-4-2-0-|-----------|---------|
D|-2-2---2---|-----------|-2-2---2---|--0-0-0--|
A|-0-0-0-0---|-----------|-3-3-3-3---|---------|
E|---------3-|-1-1-1-1-1-|---------0-|--3-3-3--|


(variações da intro)

(parte)
  (1)           (2)

E|-----------||0-0---0-------------|
B|-----------||----------0-0---0---|
G|-----------||--------------------|
D|-0-0---0---||--------------------|
A|-----------||3-3-3-3-------------|
E|-3-3-3-3-3-||--------0-3-3-3-3-3-|


(primeira parte - repetir a intro cantando junto)

How long, how long will I slide?
Separate my side
I don't, don't believe it's bad
Slittin' my throat it's all I ever

(segunda parte)

(1)       (2)

         |-----3-------|
         |-------5-----|
  ↓ X ;  |-2/4-----4---|
         |-------------|
         |-------------|
         |-------------|


Am                               Em
  I heard your voice through a photograph
Am                            Em
  I thought it up and brought up the past
Am                       Em
  Once you know you can never go back
               G             A
  I've got to take it on the otherside

Am                       Em
  Centuries are what it meant to me
Am                    Em
  A cemetery where I marry the sea
Am                        Em
  Stranger things never change my mind
               G             A
  I've got to take it on the otherside
   G             A
  Take it on the otherside
   G
  Take it on
   A
  Take it on

Terceira parte:
Am               F            C
  How long, how long will I slide?
   G           Am F      C
  Separate my si...de I don't
     G                  Am F
  I don't believe it's ba...d
    C
  Slittin' my throat
       G
  It's all I ever

(repete partes 2 e 3)
Quarta parte:

E|--------------------------------------------|
B|--------------------------------------------|
G|-9-9-7/9-9-9-7/9---------9-7/9-12-12-11-9-7-|
D|-------------------2-4-5--------------------|
A|-7-7-5/7-7-7-5/7---0-2-3-7-5/7-10-10-9--7-5-|
E|-----------------3--------------------------|

Turn me on take me for a hard ride
Burn me out leave me on the otherside
I yell and tell it that
It's not my friend
I tear it down I tear it down
And then it's born again
    Composição: Anthony Kiedis / Chad Smith / Flea / John FruscianteColaboração e revisão:
    • Elmo
    • jarbas
    • Victor
    • joao098
    • +3

    Comentários 149

    140 .
    • Gabriel Gabriel: Em 05/02/2016 15:40

      Ae Luciano do Youtube, tu é o mais pika caralho!!!

      • Erik Erik: Em 06/02/2016 16:08

        Hoje tem lançamento com o luciano do youtube, Bucetaa 1,99!

      • Leonardo Leonardo: Em 13/02/2016 - 21:08

        PIRANHA

        SAFADA

    • leobarros leobarros: Em 18/01/2016 23:05

      E|------------|-----------|
      B|----------0-|-----------|
      G|------2-2---|-2-0-------|
      D|-2-2-2------|-----2-2-0-|
      A|------------|-----------|

    • Gabriel Gabriel: Em 17/01/2016 16:23

      tem que dar uma revisada nessa aula , e a cifra de introdução ta faltando um um 2 na corda D , no final , e faltando 0-0 no final , tambe

    • Igor Igor: Em 01/01/2016 23:01

      É só eu ou mais alguém consegue ouvir um som parecido com um telefone tocando nessa música no minuto 03:48?

    • Lineu Lineu: Em 25/05/2015 09:06

      O Fofão podia rever essa aula aqui hein...

      • Yuri Yuri: Em 30/07/2015 20:47

        Comentário removido

      • Yuri Yuri: Em 30/07/2015 20:49

        essa aula foi no começo do cifra club kkk da nostalgia eles podiam "remasteriza-la" kkk

    • aurilo.barros aurilo.barros: Em 05/05/2015 20:18

      Excelente. Ausgezeichne . meraviglioso. merveilleux

    140 cancelar
    0:00 / 0:00
    1 versão de baixo exibições contribuição e correção
    2 versões de bateria exibições contribuição e correção
    3 versões de gaita exibições contribuição e correção
    2 versões de partiturasformatodownloadscontribuição
    play/pausefechar subir/descer velocidade
    6ª corda E5ª corda A4ª corda D3ª corda G2ª corda B1ª corda E
      acordes
      publicidad
      fechar
      ok