One Direction

Little Things

448.446 exibições
Tom: G
Intro: G  C9  Em7  D11  C  D11  G

Dedilhado Intro e Primeira Parte:

Parte 1


  G
E|------------------------------------------|
B|-----3-----3----------3-----3-------------|
G|---0-----0-----0----0-----0---------------|
D|-------0-----0----------0-----------------|
A|------------------------------------------|
E|-3----------------3-----------------------|


Parte 2
  

       C9
E|------------------------------------------|
B|---------3-----3----------3-----3---------|
G|-------0-----0-----0----0-----0-----3-----|
D|-----------2-----2----------2-----2-------|
A|-0-2-3----------------3-------------------|
E|------------------------------------------|


Parte 3


   Em7             D11
E|------------------------------------------|
B|-----3-----3----------3-----3-------------|
G|---0-----0-----0----0-----0-----0---------|
D|-------0-----0----4-----4-----4-----------|
A|------------------5-----------------------|
E|-0----------------------------------------|


Parte 4


   C       D11       G
E|------------------------------------------|
B|-----1--------3--------3-----3------------|
G|-------0--------0----0-----0-----0--------|
D|---2--------4------------0-----0----------|
A|-3--------5-------------------------------|
E|-------------------3----------------------|


Primeira Parte:

Your hand fits in mine

Like it's made just for me
     C9
But bear this in mind

It was meant to be
         Em7
And I'm joining up the dots
           D11
With the freckles on your cheeks
       C          D11      G
And it all makes sense to me


I know you've never loved

The crinkles by your eyes
           C9
When you smile

You've never loved

Your stomach or your thighs
     Em7
The dimples in your back
        D11
At the bottom of your spine
          C        D11     G
But I'll love them endlessly

Refrão:

Am7                            C
    I won't let these little things
     Em         D11
Slip out of my mouth
          Am7
But if I do
      C
It's you
          Em
Oh, it's you
             D11
They add up to
        C
I'm in love with you
                       G
And all these little things

Dedilhado Refrão:

Parte 1


   Am7              C
E|------------------------------------------|
B|-----1-----1----------1-----1-------------|
G|---0-----0-----0----0-----0-----0---------|
D|-2-----2-----2----2-----2-----2-----------|
A|-0-----0-----0----3-----3-----3-----------|
E|------------------------------------------|


Parte 2


   Em              D11
E|------------------------------------------|
B|-----0-----0----------3-----3-------------|
G|---0-----0-----0----0-----0-----0---------|
D|-2-----2-----2----4-----4-----4-----------|
A|-2-----2-----2----5-----5-----5-----------|
E|-0-----0-----0----------------------------|


Parte 1


   Am7              C
E|------------------------------------------|
B|-----1-----1----------1-----1-------------|
G|---0-----0-----0----0-----0-----0---------|
D|-2-----2-----2----2-----2-----2-----------|
A|-0-----0-----0----3-----3-----3-----------|
E|------------------------------------------|


Parte 2


   Em              D11
E|------------------------------------------|
B|-----0-----0----------3-----3-------------|
G|---0-----0-----0----0-----0-----0---------|
D|-2-----2-----2----4-----4-----4-----------|
A|-2-----2-----2----5-----5-----5-----------|
E|-0-----0-----0----------------------------|


Parte 3


   C
E|------------------0-----------------------|
B|-----1-----1------1-----------------------|
G|---0-----0-----0--0-----------------------|
D|-2-----2-----2----2-----------------------|
A|-3-----3-----3----3-----------------------|
E|------------------------------------------|


Parte 4


  G
E|------------------------------------------|
B|-----3-----3-----3------------------------|
G|---0-----0-----0--------------------------|
D|-------0-----0----------------------------|
A|------------------------------------------|
E|-3---------------3------------------------|


Segunda Parte:

You can't go to bed

Without a cup of tea
     C9
And maybe that's the reason

That you talk in your sleep
    Em7
And all those conversations
         D11
Are the secrets that I keep
           C        D11      G
Though it makes no sense to me


I know you've never loved
                            C9
The sound of your voice on tape

You never want 

To know how much you weigh
 Em7
You still love to squeeze 
   D11
Into your jeans
     C         D11     G
But you're perfect to me

Refrão:

Am7                            C
    I won't let these little things
     Em         D11
Slip out of my mouth
          Am7
But if I do
      C
It's you
          Em
Oh, it's you
             D11
They add up to
        C
I'm in love with you
                       
And all these little things

Terceira Parte:

Am7               C
    You'll never love yourself
     G                  D
Half as much as I love you
Am7                C
    You'll never treat yourself right 
    G                     D
Darlin' but I want you to
Am7                C
    If I let you know
     G        D
I'm here for you
Am7               C
    Maybe you'll love yourself

     G       D
Like I love you, oh

Dedilhado Terceira Parte:


   Am7              C
E|------------------------------------------|
B|-----1-----1----------1-----1-------------|
G|---0-----0-----0----0-----0-----0---------|
D|-2-----2-----2----2-----2-----2-----------|
A|-0-----0-----0----3-----3-----3-----------|
E|------------------------------------------|


Parte 2


   Em              D
E|------------------------------------------|
B|-----3-----3----------3-----3-------------|
G|---0-----0-----0----2-----2-----2---------|
D|-0-----0-----0----4-----4-----4-----------|
A|-2-----2-----2----5-----5-----5-----------|
E|-3-----0-----0----------------------------|


Refrão Final:

Am7                            C
    I won't let these little things
     Em         D11
Slip out of my mouth
          Am7
But if I do
      C
It's you
          Em
Oh, it's you
             D11
They add up to
        C
I'm in love with you
                       
And all these little things

Am7                            C
    I won't let these little things
     Em         D11
Slip out of my mouth
          Am7
But if I do
      C
It's you
          Em
Oh, it's you
             D11
They add up to
        C
I'm in love with you
                       
And all these little things
    Composição: Ed Sheeran / Fiona BevanColaboração e revisão:
    • Leo Eymard
    • Victor
    • Adonay Kevyn
    • Rafael Fernando
    • +13

    Comentários 116

    140 .
    • Rayner Rayner: Em 07/01/2016 19:34

      Leo Eymard não merece palmas, merece o Tocantins inteiro... Canta muito e toca mais ainda

    • Gabrieli Gabrieli: Em 24/12/2015 15:13

      Muito boa a vídeo aula.

    • johnnyvictor johnnyvictor: Em 15/12/2015 13:45

      kkkkk pensando q ensinar fuck era pior e fzm video aula disso

    • Leonardo Leonardo: Em 02/11/2015 20:12

      Pra que vídeo aula ? esse nem é a versão original

    • Livia Livia: Em 17/08/2015 19:14

      cade a video aula simplificada

    • Livia Livia: Em 17/08/2015 19:13

      cade a video aula gente

    • Mylena Mylena: Em 13/07/2015 13:43

      Video aulaaaaaaaaaaaaaaa

    • Sarah Sarah: Em 08/07/2015 15:34

      Cabe BBCCBB a música inteira em uma versão mais parecida com a do Ed Sheeran, mudando de acorde no meio as vezes.

    • juhmariz juhmariz: Em 05/05/2015 19:09

      queria muito uma video aula, mas acho que não vão fazer por ser one direction, e essa musica n tem capotraste

      • Isadora Isadora: Em 31/10/2015 15:47

        Tem sim, e n é capotraste, é pestana!!!

    140 cancelar
    0:00 / 0:00
    1 versão de Guitar Proformatodownloadscontribuição
    1 versão de partiturasformatodownloadscontribuição
    play/pausefechar subir/descer velocidade
    6ª corda E5ª corda A4ª corda D3ª corda G2ª corda B1ª corda E
      acordes
      versão revisada Leo Eymard instrutor de violão
      publicidad
      fechar
      ok