Richard Marx

Now and Forever

45.705 exibições
Tom: G
(intro) G  Am



  G
E|-------3-----|-------------|------3--------|
B|--0----3-----|--0h1-1/3--1-|----------1p0--|
G|----------0--|-------------|----0--------0-|
D|----0--------|--0h2-2/4--2-|--2-----2------|
A|-------------|-------------|---------------|
E|--3----------|-------------|---------------|


 G
|-------3-----|-------------|------3--------|
|--0----3-----|--0h1-1/3--1-|-----------1---|
|----------0--|-------------|----0--------0-|
|----0--------|--0h2-2/4--2-|--2-----2------|
|-------------|-------------|---------------|
|--3----------|-------------|---------------|



G     D/F#      Em7               Am7
Whenever  I'm weary    from the   battles  that
Am7/G               D/F#
  rage  in my  head  .
G    D/F#            Em7
 You  make  sense of madness
          Am7       Am7/G             D/F#
when    my  sanity  hangs  by  a  thread
C          B7                    Em         Em/D   A7/C#
 I lose  my  way  but  still you  seem to  understand
             Am7     D                 G   C
 Now  and  forever    I will be your  man
G    D/F#          Em7            Am7        Am7/G     D/F#
Sometimes  I just hold  you    to caught  up in me  to  see
G    D/F#          Em7            Am7
I'm holding  the  fortune  that  heaven  has
 Am7/G  D/F#
given to me
C             B7                    Em   Em/D      C#m7(5-)
I'll try  to show  you  each  and  every way  I can
            Am7   D           G   C
Now  and forever I'll be your man
B7          Em        C               G        D
  Now  I can rest  my worries  and  always  be  sure
Em7     C           G           D
That Í won't  be  alone    anymore
Em7         C      G               D                  Am7
If  I'd    only  known  you were  there  all  the  time
           Cm
All this time

(solo 2x) G D/F# Em Am7 Am7/G D/F#


|----------------------|-------------------------------|
|----------------------|-------------------------------|
|--0h2p0---0-2-2h4-4~~x|-4h5-2-4-5~~x-5/7-5-4~x-0--2~~x|
|--------4-------------|-------------------------------|
|----------------------|-------------------------------|
|3---------------------|-------------------------------|


|-------------3--2~x|2/3/2-0-7~x|
|--------0h3-0-0----|-----------|
|-----0h2-------2---|-----------|
|0h2h4--------------|-----------|
|-------------------|-----------|
|-------------------|-----------|


|-0-7/8-0-7-----7----------------------|
|----------10-10-8~x---8-8~x-8/10-10~~x|
|-------------------7-7-----7----------|
|--------------------------------------|
|--------------------------------------|
|--------------------------------------|


|--3p2-0----------0~~x-|
|-------3p1-0-0h1-1~~x-|
|------------2----0~~x-|
|----------------------|
|----------------------|
|----------------------|



C           B7
Until  the day   the ocean
Em7      Em/D          C#m7(5-)                 Am7
doesn't  touch the sand    now  and forever
 D                G  C              Am7
I will be  your   man    Now  and Forever
D                C Cm G
I will  be your man
    Composição: Richard MarxColaboração e revisão:
    • Adriano
    • gibran
    • Roberto
    • Arkanjo

    Comentários 2

    140 .
    • nonapinheiro nonapinheiro: Em 09/08/2015 10:32

      Manos cadê a videoaula dessa musica, essa é TOP.

    • Lucas Lucas: Em 19/02/2014 19:59

      Façam video aula dessa música, por favor! Preciso aprender esse dedilhado... É a música favorita do meu pai!

    140 cancelar

    conseguiu tocar?

    • daniellinhares7

    covers

    Grave um vídeo tocando Now and Forever e mande pra gente!

    Ex.: http://www.youtube.com/watch?v=0IvSvIwGdwk
    ver covers de outras músicas »
    0:00 / 0:00

    Capítulos

      1 versão de violão dificuldade exibições contribuição e correção
      1 versão de guitarra dificuldade exibições contribuição e correção
      1 versão de cavaco dificuldade exibições contribuição e correção
      1 versão de teclado dificuldade exibições contribuição e correção
      1 versão de Guitar Proformatodownloadscontribuição
      play/pausefechar subir/descer velocidade
      6ª corda E5ª corda A4ª corda D3ª corda G2ª corda B1ª corda E
        acordes
        publicidad
        fechar
        ok